  0
SECTION
  2
HEADER
  9
$ACADVER
  1
AC1015
  9
$ACADMAINTVER
 70
     6
  9
$DWGCODEPAGE
  3
ANSI_1254
  9
$INSBASE
 10
0.0
 20
0.0
 30
0.0
  9
$EXTMIN
 10
0.0
 20
0.0
 30
0.0
  9
$EXTMAX
 10
279.4
 20
215.9
 30
0.0
  9
$LIMMIN
 10
0.0
 20
0.0
  9
$LIMMAX
 10
279.4
 20
215.9
  9
$ORTHOMODE
 70
     0
  9
$REGENMODE
 70
     1
  9
$FILLMODE
 70
     1
  9
$QTEXTMODE
 70
     0
  9
$MIRRTEXT
 70
     1
  9
$LTSCALE
 40
1.0
  9
$ATTMODE
 70
     1
  9
$TEXTSIZE
 40
3.5
  9
$TRACEWID
 40
1.0
  9
$TEXTSTYLE
  7
Standard
  9
$CLAYER
  8
0
  9
$CELTYPE
  6
ByLayer
  9
$CECOLOR
 62
   256
  9
$CELTSCALE
 40
1.0
  9
$DISPSILH
 70
     0
  9
$DIMSCALE
 40
1.0
  9
$DIMASZ
 40
3.5
  9
$DIMEXO
 40
1.0
  9
$DIMDLI
 40
3.75
  9
$DIMRND
 40
0.0
  9
$DIMDLE
 40
0.0
  9
$DIMEXE
 40
1.0
  9
$DIMTP
 40
0.0
  9
$DIMTM
 40
0.0
  9
$DIMTXT
 40
3.5
  9
$DIMCEN
 40
2.5
  9
$DIMTSZ
 40
0.0
  9
$DIMTOL
 70
     0
  9
$DIMLIM
 70
     0
  9
$DIMTIH
 70
     1
  9
$DIMTOH
 70
     1
  9
$DIMSE1
 70
     0
  9
$DIMSE2
 70
     0
  9
$DIMTAD
 70
     1
  9
$DIMZIN
 70
     0
  9
$DIMBLK
  1

  9
$DIMASO
 70
     1
  9
$DIMSHO
 70
     1
  9
$DIMPOST
  1

  9
$DIMAPOST
  1

  9
$DIMALT
 70
     0
  9
$DIMALTD
 70
     3
  9
$DIMALTF
 40
0.0393700787
  9
$DIMLFAC
 40
1.0
  9
$DIMTOFL
 70
     1
  9
$DIMTVP
 40
0.0
  9
$DIMTIX
 70
     0
  9
$DIMSOXD
 70
     0
  9
$DIMSAH
 70
     0
  9
$DIMBLK1
  1

  9
$DIMBLK2
  1

  9
$DIMSTYLE
  2
ISO-25
  9
$DIMCLRD
 70
     0
  9
$DIMCLRE
 70
     0
  9
$DIMCLRT
 70
     0
  9
$DIMTFAC
 40
1.0
  9
$DIMGAP
 40
1.524
  9
$DIMJUST
 70
     0
  9
$DIMSD1
 70
     0
  9
$DIMSD2
 70
     0
  9
$DIMTOLJ
 70
     0
  9
$DIMTZIN
 70
     0
  9
$DIMALTZ
 70
     0
  9
$DIMALTTZ
 70
     0
  9
$DIMUPT
 70
     0
  9
$DIMDEC
 70
     2
  9
$DIMTDEC
 70
     2
  9
$DIMALTU
 70
     2
  9
$DIMALTTD
 70
     3
  9
$DIMTXSTY
  7
Standard
  9
$DIMAUNIT
 70
     0
  9
$DIMADEC
 70
     2
  9
$DIMALTRND
 40
0.0
  9
$DIMAZIN
 70
     0
  9
$DIMDSEP
 70
    44
  9
$DIMATFIT
 70
     3
  9
$DIMFRAC
 70
     0
  9
$DIMLDRBLK
  1

  9
$DIMLUNIT
 70
     2
  9
$DIMLWD
 70
    -2
  9
$DIMLWE
 70
    -2
  9
$DIMTMOVE
 70
     0
  9
$LUNITS
 70
     2
  9
$LUPREC
 70
     2
  9
$SKETCHINC
 40
1.0
  9
$FILLETRAD
 40
10.0
  9
$AUNITS
 70
     0
  9
$AUPREC
 70
     2
  9
$MENU
  1
.
  9
$ELEVATION
 40
0.0
  9
$PELEVATION
 40
0.0
  9
$THICKNESS
 40
0.0
  9
$LIMCHECK
 70
     0
  9
$CHAMFERA
 40
0.0
  9
$CHAMFERB
 40
0.0
  9
$CHAMFERC
 40
0.0
  9
$CHAMFERD
 40
0.0
  9
$SKPOLY
 70
     0
  9
$TDCREATE
 40
2458985.691079329
  9
$TDUCREATE
 40
2458985.566079329
  9
$TDUPDATE
 40
2458985.691079606
  9
$TDUUPDATE
 40
2458985.566079606
  9
$TDINDWG
 40
0.0000000116
  9
$TDUSRTIMER
 40
0.0000000116
  9
$USRTIMER
 70
     1
  9
$ANGBASE
 50
0.0
  9
$ANGDIR
 70
     0
  9
$PDMODE
 70
     0
  9
$PDSIZE
 40
-1.0
  9
$PLINEWID
 40
0.0
  9
$SPLFRAME
 70
     0
  9
$SPLINETYPE
 70
     6
  9
$SPLINESEGS
 70
     8
  9
$HANDSEED
  5
CB
  9
$SURFTAB1
 70
     6
  9
$SURFTAB2
 70
     6
  9
$SURFTYPE
 70
     6
  9
$SURFU
 70
     6
  9
$SURFV
 70
     6
  9
$UCSBASE
  2

  9
$UCSNAME
  2

  9
$UCSORG
 10
0.0
 20
0.0
 30
0.0
  9
$UCSXDIR
 10
1.0
 20
0.0
 30
0.0
  9
$UCSYDIR
 10
0.0
 20
1.0
 30
0.0
  9
$UCSORTHOREF
  2

  9
$UCSORTHOVIEW
 70
     0
  9
$UCSORGTOP
 10
0.0
 20
0.0
 30
0.0
  9
$UCSORGBOTTOM
 10
0.0
 20
0.0
 30
0.0
  9
$UCSORGLEFT
 10
0.0
 20
0.0
 30
0.0
  9
$UCSORGRIGHT
 10
0.0
 20
0.0
 30
0.0
  9
$UCSORGFRONT
 10
0.0
 20
0.0
 30
0.0
  9
$UCSORGBACK
 10
0.0
 20
0.0
 30
0.0
  9
$PUCSBASE
  2

  9
$PUCSNAME
  2

  9
$PUCSORG
 10
0.0
 20
0.0
 30
0.0
  9
$PUCSXDIR
 10
1.0
 20
0.0
 30
0.0
  9
$PUCSYDIR
 10
0.0
 20
1.0
 30
0.0
  9
$PUCSORTHOREF
  2

  9
$PUCSORTHOVIEW
 70
     0
  9
$PUCSORGTOP
 10
0.0
 20
0.0
 30
0.0
  9
$PUCSORGBOTTOM
 10
0.0
 20
0.0
 30
0.0
  9
$PUCSORGLEFT
 10
0.0
 20
0.0
 30
0.0
  9
$PUCSORGRIGHT
 10
0.0
 20
0.0
 30
0.0
  9
$PUCSORGFRONT
 10
0.0
 20
0.0
 30
0.0
  9
$PUCSORGBACK
 10
0.0
 20
0.0
 30
0.0
  9
$USERI1
 70
     0
  9
$USERI2
 70
     0
  9
$USERI3
 70
     0
  9
$USERI4
 70
     0
  9
$USERI5
 70
     0
  9
$USERR1
 40
0.0
  9
$USERR2
 40
0.0
  9
$USERR3
 40
0.0
  9
$USERR4
 40
0.0
  9
$USERR5
 40
0.0
  9
$WORLDVIEW
 70
     1
  9
$SHADEDGE
 70
     3
  9
$SHADEDIF
 70
    70
  9
$TILEMODE
 70
     1
  9
$MAXACTVP
 70
    64
  9
$PINSBASE
 10
0.0
 20
0.0
 30
0.0
  9
$PLIMCHECK
 70
     0
  9
$PEXTMIN
 10
1.0000000000E+20
 20
1.0000000000E+20
 30
1.0000000000E+20
  9
$PEXTMAX
 10
-1.0000000000E+20
 20
-1.0000000000E+20
 30
-1.0000000000E+20
  9
$PLIMMIN
 10
0.0
 20
0.0
  9
$PLIMMAX
 10
420.0
 20
297.0
  9
$UNITMODE
 70
     0
  9
$VISRETAIN
 70
     1
  9
$PLINEGEN
 70
     0
  9
$PSLTSCALE
 70
     1
  9
$TREEDEPTH
 70
  3020
  9
$CMLSTYLE
  2
Standard
  9
$CMLJUST
 70
     0
  9
$CMLSCALE
 40
20.0
  9
$PROXYGRAPHICS
 70
     1
  9
$MEASUREMENT
 70
     1
  9
$CELWEIGHT
370
    -1
  9
$ENDCAPS
280
     0
  9
$JOINSTYLE
280
     0
  9
$LWDISPLAY
290
     1
  9
$INSUNITS
 70
     4
  9
$HYPERLINKBASE
  1

  9
$STYLESHEET
  1

  9
$XEDIT
290
     1
  9
$CEPSNTYPE
380
     0
  9
$PSTYLEMODE
290
     1
  9
$FINGERPRINTGUID
  2
{97450811-fd18-4517-93b8-bd359b91de90}
  9
$VERSIONGUID
  2
{FAEB1C32-E019-11D5-929B-00C0DF256EC4}
  9
$EXTNAMES
290
     1
  9
$PSVPSCALE
 40
0.0
  9
$OLESTARTUP
290
     0
  0
ENDSEC
  0
SECTION
  2
CLASSES
  0
CLASS
  1
ACDBDICTIONARYWDFLT
  2
AcDbDictionaryWithDefault
  3
ObjectDBX Classes
 90
        0
280
     0
281
     0
  0
CLASS
  1
VISUALSTYLE
  2
AcDbVisualStyle
  3
ObjectDBX Classes
 90
     4095
280
     0
281
     0
  0
CLASS
  1
MATERIAL
  2
AcDbMaterial
  3
ObjectDBX Classes
 90
     1153
280
     0
281
     0
  0
CLASS
  1
SCALE
  2
AcDbScale
  3
ObjectDBX Classes
 90
     1153
280
     0
281
     0
  0
CLASS
  1
TABLESTYLE
  2
AcDbTableStyle
  3
ObjectDBX Classes
 90
     4095
280
     0
281
     0
  0
CLASS
  1
MLEADERSTYLE
  2
AcDbMLeaderStyle
  3
ACDB_MLEADERSTYLE_CLASS
 90
     4095
280
     0
281
     0
  0
CLASS
  1
SUN
  2
AcDbSun
  3
SCENEOE
 90
     1153
280
     0
281
     0
  0
CLASS
  1
ACDBPLACEHOLDER
  2
AcDbPlaceHolder
  3
ObjectDBX Classes
 90
        0
280
     0
281
     0
  0
CLASS
  1
LAYOUT
  2
AcDbLayout
  3
ObjectDBX Classes
 90
        0
280
     0
281
     0
  0
ENDSEC
  0
SECTION
  2
TABLES
  0
TABLE
  2
VPORT
  5
8
330
0
100
AcDbSymbolTable
 70
     1
  0
VPORT
  5
29
330
8
100
AcDbSymbolTableRecord
100
AcDbViewportTableRecord
  2
*Active
 70
     0
 10
0.0
 20
0.0
 11
1.0
 21
1.0
 12
139.7
 22
107.95
 13
0.0
 23
0.0
 14
10.0
 24
10.0
 15
10.0
 25
10.0
 16
0.0
 26
0.0
 36
1.0
 17
0.0
 27
0.0
 37
0.0
 40
215.9
 41
1.2941176471
 42
50.0
 43
0.0
 44
0.0
 50
0.0
 51
0.0
 71
     0
 72
  2000
 73
     1
 74
     3
 75
     0
 76
     0
 77
     0
 78
     0
281
     0
 65
     1
110
0.0
120
0.0
130
0.0
111
1.0
121
0.0
131
0.0
112
0.0
122
1.0
132
0.0
 79
     0
146
0.0
  0
ENDTAB
  0
TABLE
  2
LTYPE
  5
5
330
0
100
AcDbSymbolTable
 70
     6
  0
LTYPE
  5
14
330
5
100
AcDbSymbolTableRecord
100
AcDbLinetypeTableRecord
  2
ByBlock
 70
     0
  3

 72
    65
 73
     0
 40
0.0
  0
LTYPE
  5
15
330
5
100
AcDbSymbolTableRecord
100
AcDbLinetypeTableRecord
  2
ByLayer
 70
     0
  3

 72
    65
 73
     0
 40
0.0
  0
LTYPE
  5
16
330
5
100
AcDbSymbolTableRecord
100
AcDbLinetypeTableRecord
  2
Continuous
 70
     0
  3
Solid line
 72
    65
 73
     0
 40
0.0
  0
LTYPE
  5
6E
330
5
100
AcDbSymbolTableRecord
100
AcDbLinetypeTableRecord
  2
HIDDEN
 70
     0
  3
Hidden __ __ __ __ __ __ __ __ __ __ __ __ __ __
 72
    65
 73
     2
 40
1.905
 49
1.27
 74
     0
 49
-0.635
 74
     0
  0
LTYPE
  5
6F
330
5
100
AcDbSymbolTableRecord
100
AcDbLinetypeTableRecord
  2
PHANTOM
 70
     0
  3
Phantom ______  __  __  ______  __  __  ______
 72
    65
 73
     6
 40
12.7
 49
6.35
 74
     0
 49
-1.27
 74
     0
 49
1.27
 74
     0
 49
-1.27
 74
     0
 49
1.27
 74
     0
 49
-1.27
 74
     0
  0
LTYPE
  5
70
330
5
100
AcDbSymbolTableRecord
100
AcDbLinetypeTableRecord
  2
CENTER
 70
     0
  3
Center ____ _ ____ _ ____ _ ____ _ ____ _ ____
 72
    65
 73
     4
 40
10.16
 49
6.35
 74
     0
 49
-1.27
 74
     0
 49
1.27
 74
     0
 49
-1.27
 74
     0
  0
LTYPE
  5
71
330
5
100
AcDbSymbolTableRecord
100
AcDbLinetypeTableRecord
  2
CENTERX2
 70
     0
  3
Center (2x) ________  __  ________  __  _____
 72
    65
 73
     4
 40
20.32
 49
12.7
 74
     0
 49
-2.54
 74
     0
 49
2.54
 74
     0
 49
-2.54
 74
     0
  0
LTYPE
  5
72
330
5
100
AcDbSymbolTableRecord
100
AcDbLinetypeTableRecord
  2
DOT2
 70
     0
  3
Dot (.5x) ........................................
 72
    65
 73
     2
 40
0.635
 49
0.0
 74
     0
 49
-0.635
 74
     0
  0
ENDTAB
  0
TABLE
  2
LAYER
  5
2
330
0
100
AcDbSymbolTable
 70
    17
  0
LAYER
  5
10
330
2
100
AcDbSymbolTableRecord
100
AcDbLayerTableRecord
  2
0
 70
     0
 62
     7
  6
Continuous
370
    -3
390
F
  0
LAYER
  5
73
330
2
100
AcDbSymbolTableRecord
100
AcDbLayerTableRecord
  2
FORMAT
 70
     0
 62
     7
  6
Continuous
370
    -3
390
F
  0
LAYER
  5
74
330
2
100
AcDbSymbolTableRecord
100
AcDbLayerTableRecord
  2
YARDIMCI_GEOMETRI
 70
     0
 62
    -6
  6
Continuous
290
     0
370
    -3
390
F
  0
LAYER
  5
75
330
2
100
AcDbSymbolTableRecord
100
AcDbLayerTableRecord
  2
SAYFA_CERCEVESI
 70
     0
 62
     7
  6
Continuous
370
    25
390
F
  0
LAYER
  5
76
330
2
100
AcDbSymbolTableRecord
100
AcDbLayerTableRecord
  2
ANTET
 70
     0
 62
     7
  6
Continuous
370
    -3
390
F
  0
LAYER
  5
77
330
2
100
AcDbSymbolTableRecord
100
AcDbLayerTableRecord
  2
OLCU
 70
     0
 62
   150
  6
Continuous
370
    -3
390
F
  0
LAYER
  5
78
330
2
100
AcDbSymbolTableRecord
100
AcDbLayerTableRecord
  2
METIN
 70
     0
 62
    96
  6
Continuous
370
    -3
390
F
  0
LAYER
  5
79
330
2
100
AcDbSymbolTableRecord
100
AcDbLayerTableRecord
  2
BALON
 70
     0
 62
     5
  6
Continuous
370
    -3
390
F
  0
LAYER
  5
7A
330
2
100
AcDbSymbolTableRecord
100
AcDbLayerTableRecord
  2
VURGU
 70
     0
 62
     7
  6
Continuous
370
    -3
390
F
  0
LAYER
  5
7B
330
2
100
AcDbSymbolTableRecord
100
AcDbLayerTableRecord
  2
SILIK
 70
     0
 62
     7
  6
Continuous
370
    -3
390
F
  0
LAYER
  5
7C
330
2
100
AcDbSymbolTableRecord
100
AcDbLayerTableRecord
  2
MODEL
 70
     0
 62
     7
  6
Continuous
370
    -3
390
F
  0
LAYER
  5
7D
330
2
100
AcDbSymbolTableRecord
100
AcDbLayerTableRecord
  2
DETAYLANDıRMA
 70
     0
 62
   190
  6
Continuous
370
    -3
390
F
  0
LAYER
  5
7E
330
2
100
AcDbSymbolTableRecord
100
AcDbLayerTableRecord
  2
TOLERANS
 70
     0
 62
   230
  6
Continuous
370
    -3
390
F
  0
LAYER
  5
7F
330
2
100
AcDbSymbolTableRecord
100
AcDbLayerTableRecord
  2
MERKEZ_CIZGILERI
 70
     0
 62
    30
  6
Continuous
370
    -3
390
F
  0
LAYER
  5
80
330
2
100
AcDbSymbolTableRecord
100
AcDbLayerTableRecord
  2
KESIT-DETAY_CIZGILERI
 70
     0
 62
     7
  6
Continuous
370
    -3
390
F
  0
LAYER
  5
81
330
2
100
AcDbSymbolTableRecord
100
AcDbLayerTableRecord
  2
\U+041E\U+0421\U+0415\U+0412\U+042B\U+0415
 70
     0
 62
     7
  6
Continuous
370
    -3
390
F
  0
LAYER
  5
82
330
2
100
AcDbSymbolTableRecord
100
AcDbLayerTableRecord
  2
\U+0412\U+041E\U+0414\U+042F\U+041D\U+042B\U+0415_\U+0417\U+041D\U+0410\U+041A\U+0418
 70
     0
 62
    11
  6
Continuous
370
    -3
390
F
  0
ENDTAB
  0
TABLE
  2
STYLE
  5
3
330
0
100
AcDbSymbolTable
 70
     1
  0
STYLE
  5
11
330
3
100
AcDbSymbolTableRecord
100
AcDbTextStyleTableRecord
  2
Standard
 70
     0
 40
0.0
 41
1.0
 50
0.0
 71
     0
 42
3.5
  3
txt
  4

  0
ENDTAB
  0
TABLE
  2
VIEW
  5
6
330
0
100
AcDbSymbolTable
 70
     0
  0
ENDTAB
  0
TABLE
  2
UCS
  5
7
330
0
100
AcDbSymbolTable
 70
     0
  0
ENDTAB
  0
TABLE
  2
APPID
  5
9
330
0
100
AcDbSymbolTable
 70
     1
  0
APPID
  5
12
330
9
100
AcDbSymbolTableRecord
100
AcDbRegAppTableRecord
  2
ACAD
 70
     0
  0
ENDTAB
  0
TABLE
  2
DIMSTYLE
  5
A
330
0
100
AcDbSymbolTable
 70
     1
100
AcDbDimStyleTable
  0
DIMSTYLE
105
27
330
A
100
AcDbSymbolTableRecord
100
AcDbDimStyleTableRecord
  2
ISO-25
 70
     0
 41
2.5
 42
0.625
 43
3.75
 44
1.25
 73
     0
 74
     0
 77
     1
 78
     8
140
2.5
141
2.5
143
0.0393700787
147
0.625
171
     3
172
     1
178
     0
271
     2
272
     2
274
     3
278
    44
283
     0
284
     8
340
11
  0
ENDTAB
  0
TABLE
  2
BLOCK_RECORD
  5
1
330
0
100
AcDbSymbolTable
 70
     3
  0
BLOCK_RECORD
  5
1F
330
1
100
AcDbSymbolTableRecord
100
AcDbBlockTableRecord
  2
*Model_Space
340
22
  0
BLOCK_RECORD
  5
1B
330
1
100
AcDbSymbolTableRecord
100
AcDbBlockTableRecord
  2
*Paper_Space
340
1E
  0
BLOCK_RECORD
  5
23
330
1
100
AcDbSymbolTableRecord
100
AcDbBlockTableRecord
  2
*Paper_Space0
340
26
  0
BLOCK_RECORD
  5
88
330
1
100
AcDbSymbolTableRecord
100
AcDbBlockTableRecord
  2
SW_CENTERMARKSYMBOL_0
340
0
102
{BLKREFS
331
93
102
}
  0
BLOCK_RECORD
  5
9C
330
1
100
AcDbSymbolTableRecord
100
AcDbBlockTableRecord
  2
SW_CENTERMARKSYMBOL_1
340
0
102
{BLKREFS
331
A7
102
}
  0
ENDTAB
  0
ENDSEC
  0
SECTION
  2
BLOCKS
  0
BLOCK
  5
20
330
1F
100
AcDbEntity
  8
0
100
AcDbBlockBegin
  2
*Model_Space
 70
     0
 10
0.0
 20
0.0
 30
0.0
  3
*Model_Space
  1

  0
ENDBLK
  5
21
330
1F
100
AcDbEntity
  8
0
100
AcDbBlockEnd
  0
BLOCK
  5
1C
330
1B
100
AcDbEntity
 67
     1
  8
0
100
AcDbBlockBegin
  2
*Paper_Space
 70
     0
 10
0.0
 20
0.0
 30
0.0
  3
*Paper_Space
  1

  0
ENDBLK
  5
1D
330
1B
100
AcDbEntity
 67
     1
  8
0
100
AcDbBlockEnd
  0
BLOCK
  5
24
330
23
100
AcDbEntity
  8
0
100
AcDbBlockBegin
  2
*Paper_Space0
 70
     0
 10
0.0
 20
0.0
 30
0.0
  3
*Paper_Space0
  1

  0
ENDBLK
  5
25
330
23
100
AcDbEntity
  8
0
100
AcDbBlockEnd
  0
BLOCK
  5
89
330
88
100
AcDbEntity
  8
0
100
AcDbBlockBegin
  2
SW_CENTERMARKSYMBOL_0
 70
     0
 10
0.0
 20
0.0
 30
0.0
  3
SW_CENTERMARKSYMBOL_0
  1

  0
LINE
  5
8B
330
88
100
AcDbEntity
  8
FORMAT
 62
     0
100
AcDbLine
 10
0.0
 20
0.0
 30
0.0
 11
2.5
 21
0.0
 31
0.0
  0
LINE
  5
8C
330
88
100
AcDbEntity
  8
FORMAT
 62
     0
100
AcDbLine
 10
0.0
 20
0.0
 30
0.0
 11
0.0
 21
2.5
 31
0.0
  0
LINE
  5
8D
330
88
100
AcDbEntity
  8
FORMAT
 62
     0
100
AcDbLine
 10
0.0
 20
0.0
 30
0.0
 11
-2.5
 21
0.0
 31
0.0
  0
LINE
  5
8E
330
88
100
AcDbEntity
  8
FORMAT
 62
     0
100
AcDbLine
 10
0.0
 20
0.0
 30
0.0
 11
0.0
 21
-2.5
 31
0.0
  0
LINE
  5
8F
330
88
100
AcDbEntity
  8
FORMAT
 62
     0
100
AcDbLine
 10
5.0
 20
0.0
 30
0.0
 11
115.0
 21
0.0
 31
0.0
  0
LINE
  5
90
330
88
100
AcDbEntity
  8
FORMAT
 62
     0
100
AcDbLine
 10
0.0
 20
5.0
 30
0.0
 11
0.0
 21
115.0
 31
0.0
  0
LINE
  5
91
330
88
100
AcDbEntity
  8
FORMAT
 62
     0
100
AcDbLine
 10
-5.0
 20
0.0
 30
0.0
 11
-115.0
 21
0.0
 31
0.0
  0
LINE
  5
92
330
88
100
AcDbEntity
  8
FORMAT
 62
     0
100
AcDbLine
 10
0.0
 20
-5.0
 30
0.0
 11
0.0
 21
-115.0
 31
0.0
  0
ENDBLK
  5
8A
330
88
100
AcDbEntity
  8
0
100
AcDbBlockEnd
  0
BLOCK
  5
9D
330
9C
100
AcDbEntity
  8
0
100
AcDbBlockBegin
  2
SW_CENTERMARKSYMBOL_1
 70
     0
 10
0.0
 20
0.0
 30
0.0
  3
SW_CENTERMARKSYMBOL_1
  1

  0
LINE
  5
9F
330
9C
100
AcDbEntity
  8
FORMAT
 62
     0
100
AcDbLine
 10
0.0
 20
0.0
 30
0.0
 11
0.0
 21
2.5
 31
0.0
  0
LINE
  5
A0
330
9C
100
AcDbEntity
  8
FORMAT
 62
     0
100
AcDbLine
 10
0.0
 20
0.0
 30
0.0
 11
-2.5
 21
0.0
 31
0.0
  0
LINE
  5
A1
330
9C
100
AcDbEntity
  8
FORMAT
 62
     0
100
AcDbLine
 10
0.0
 20
0.0
 30
0.0
 11
0.0
 21
-2.5
 31
0.0
  0
LINE
  5
A2
330
9C
100
AcDbEntity
  8
FORMAT
 62
     0
100
AcDbLine
 10
0.0
 20
0.0
 30
0.0
 11
2.5
 21
0.0
 31
0.0
  0
LINE
  5
A3
330
9C
100
AcDbEntity
  8
FORMAT
 62
     0
100
AcDbLine
 10
0.0
 20
5.0
 30
0.0
 11
0.0
 21
57.5
 31
0.0
  0
LINE
  5
A4
330
9C
100
AcDbEntity
  8
FORMAT
 62
     0
100
AcDbLine
 10
-5.0
 20
0.0
 30
0.0
 11
-57.5
 21
0.0
 31
0.0
  0
LINE
  5
A5
330
9C
100
AcDbEntity
  8
FORMAT
 62
     0
100
AcDbLine
 10
0.0
 20
-5.0
 30
0.0
 11
0.0
 21
-57.5
 31
0.0
  0
LINE
  5
A6
330
9C
100
AcDbEntity
  8
FORMAT
 62
     0
100
AcDbLine
 10
5.0
 20
0.0
 30
0.0
 11
57.5
 21
0.0
 31
0.0
  0
ENDBLK
  5
9E
330
9C
100
AcDbEntity
  8
0
100
AcDbBlockEnd
  0
ENDSEC
  0
SECTION
  2
ENTITIES
  0
LINE
  5
83
330
1F
100
AcDbEntity
  8
0
  6
Continuous
 62
     7
370
    25
100
AcDbLine
 10
85.2388278633
 20
54.9934830952
 30
0.0
 11
85.2388278633
 21
-72.8167343449
 31
0.0
  0
LINE
  5
84
330
1F
100
AcDbEntity
  8
0
  6
Continuous
 62
     7
370
    25
100
AcDbLine
 10
195.2388272672
 20
-72.8167343449
 30
0.0
 11
195.2388272672
 21
54.9937960196
 31
0.0
  0
CIRCLE
  5
85
330
1F
100
AcDbEntity
  8
0
  6
Continuous
 62
     7
370
    25
100
AcDbCircle
 10
140.2388275653
 20
153.1832617212
 30
0.0
 40
99.1
  0
CIRCLE
  5
86
330
1F
100
AcDbEntity
  8
0
  6
Continuous
 62
     7
370
    25
100
AcDbCircle
 10
140.2388275653
 20
153.1832617212
 30
0.0
 40
112.5
  0
LINE
  5
87
330
1F
100
AcDbEntity
  8
0
  6
Continuous
 62
     7
370
    25
100
AcDbLine
 10
195.2388272672
 20
-72.8167343449
 30
0.0
 11
85.2388278633
 21
-72.8167343449
 31
0.0
  0
INSERT
  5
93
330
1F
100
AcDbEntity
  8
FORMAT
 62
     7
100
AcDbBlockReference
  2
SW_CENTERMARKSYMBOL_0
 10
140.2388275653
 20
153.1832617212
 30
0.0
  0
LINE
  5
94
330
1F
100
AcDbEntity
  8
0
  6
Continuous
 62
     7
370
    25
100
AcDbLine
 10
252.738824585
 20
421.0790280512
 30
0.0
 11
252.738824585
 21
948.0790380648
 31
0.0
  0
LINE
  5
95
330
1F
100
AcDbEntity
  8
0
  6
Continuous
 62
     7
370
    25
100
AcDbLine
 10
27.7388305455
 20
948.0790380648
 30
0.0
 11
27.7388305455
 21
421.0790280512
 31
0.0
  0
CIRCLE
  5
96
330
1F
100
AcDbEntity
  8
0
  6
Continuous
 62
     7
370
    25
100
AcDbCircle
 10
140.2388275653
 20
684.579033058
 30
0.0
 40
48.39999999999998
  0
CIRCLE
  5
97
330
1F
100
AcDbEntity
  8
0
  6
Continuous
 62
     7
370
    25
100
AcDbCircle
 10
140.2388275653
 20
684.579033058
 30
0.0
 40
55.0
  0
LINE
  5
98
330
1F
100
AcDbEntity
  8
0
  6
Continuous
 62
     7
370
    25
100
AcDbLine
 10
140.2388275653
 20
948.0790380648
 30
0.0
 11
252.738824585
 21
948.0790380648
 31
0.0
  0
LINE
  5
99
330
1F
100
AcDbEntity
  8
0
  6
Continuous
 62
     7
370
    25
100
AcDbLine
 10
27.7388305455
 20
948.0790380648
 30
0.0
 11
140.2388275653
 21
948.0790380648
 31
0.0
  0
LINE
  5
9A
330
1F
100
AcDbEntity
  8
0
  6
Continuous
 62
     7
370
    25
100
AcDbLine
 10
140.2388275653
 20
421.0790280512
 30
0.0
 11
252.738824585
 21
421.0790280512
 31
0.0
  0
LINE
  5
9B
330
1F
100
AcDbEntity
  8
0
  6
Continuous
 62
     7
370
    25
100
AcDbLine
 10
27.7388305455
 20
421.0790280512
 30
0.0
 11
140.2388275653
 21
421.0790280512
 31
0.0
  0
INSERT
  5
A7
330
1F
100
AcDbEntity
  8
FORMAT
100
AcDbBlockReference
  2
SW_CENTERMARKSYMBOL_1
 10
140.2388275653
 20
684.579033058
 30
0.0
  0
LINE
  5
A8
330
1F
100
AcDbEntity
  8
0
  6
Continuous
 62
     7
370
    25
100
AcDbLine
 10
-139.0848307246
 20
265.6832587409
 30
0.0
 11
-666.0848407382
 21
265.6832587409
 31
0.0
  0
LINE
  5
A9
330
1F
100
AcDbEntity
  8
0
  6
Continuous
 62
     7
370
    25
100
AcDbLine
 10
-347.6232996517
 20
40.6832647014
 30
0.0
 11
-139.0848307246
 21
40.6832647014
 31
0.0
  0
LINE
  5
AA
330
1F
100
AcDbEntity
  8
0
  6
Continuous
 62
     7
370
    25
100
AcDbLine
 10
-666.0848407382
 20
40.6832647014
 30
0.0
 11
-457.5848354333
 21
40.6832647014
 31
0.0
  0
LINE
  5
AB
330
1F
100
AcDbEntity
  8
0
  6
Continuous
 62
     7
370
    25
100
AcDbLine
 10
-457.5848354333
 20
40.6832647014
 30
0.0
 11
-457.5848354333
 21
-72.8167343449
 31
0.0
  0
LINE
  5
AC
330
1F
100
AcDbEntity
  8
0
  6
Continuous
 62
     7
370
    25
100
AcDbLine
 10
-347.5848360294
 20
-72.8167343449
 30
0.0
 11
-347.5848360294
 21
40.7021444726
 31
0.0
  0
SPLINE
  5
AD
330
1F
100
AcDbEntity
  8
0
  6
Continuous
 62
     7
370
    25
100
AcDbSpline
210
0.0
220
0.0
230
1.0
 70
     8
 71
     3
 72
    39
 73
    35
 74
     0
 42
0.000000001
 43
0.00000001
 40
0.0
 40
0.0
 40
0.0
 40
0.0
 40
0.0071214127241164
 40
0.0333254660264964
 40
0.0803870349877915
 40
0.1045851668911047
 40
0.1287845304583198
 40
0.1773223512663979
 40
0.2270405595507126
 40
0.2536158110109953
 40
0.2801911857533605
 40
0.307475203051841
 40
0.3347580695109873
 40
0.3623530030360822
 40
0.3899454561006854
 40
0.4185126248427153
 40
0.447076600261681
 40
0.4720470699795748
 40
0.4970166672125333
 40
0.522861104524989
 40
0.5487063735998166
 40
0.5944432463532963
 40
0.6413557259705437
 40
0.6902424026493075
 40
0.7402738275548164
 40
0.7674750052689467
 40
0.7946755539963297
 40
0.8226611315808483
 40
0.8506449114897867
 40
0.8777981076001827
 40
0.9049493310616619
 40
0.9330624860284583
 40
0.9611738887561684
 40
1.0
 40
1.0
 40
1.0
 40
1.0
 10
-347.6232996517262
 20
40.70214447261601
 30
0.0
 10
-347.6121582210943
 20
40.69671473905697
 30
0.0
 10
-347.5600206210991
 20
40.67130567932883
 30
0.0
 10
-347.9451590583301
 20
40.85926101710113
 30
0.0
 10
-348.9374793832464
 20
41.34133265345698
 30
0.0
 10
-350.5539827615095
 20
42.10697680143784
 30
0.0
 10
-352.5822830584281
 20
43.04736200873262
 30
0.0
 10
-355.8720827161945
 20
44.51903105094004
 30
0.0
 10
-360.1176259078593
 20
46.27534661876896
 30
0.0
 10
-364.1212622343388
 20
47.7902875685584
 30
0.0
 10
-367.5115050481652
 20
48.98295035768116
 30
0.0
 10
-371.1809344370593
 20
50.1634844070671
 30
0.0
 10
-375.1324192941873
 20
51.30227782917958
 30
0.0
 10
-379.3188366909396
 20
52.35269406885862
 30
0.0
 10
-383.7692982525744
 20
53.29082383244378
 30
0.0
 10
-388.4490996267954
 20
54.06866246791885
 30
0.0
 10
-393.1208059768966
 20
54.62541548440348
 30
0.0
 10
-397.6721313470666
 20
54.95289383775671
 30
0.0
 10
-402.1067784568426
 20
55.07756446887309
 30
0.0
 10
-406.5976911151042
 20
54.99615399460812
 30
0.0
 10
-412.2591776627577
 20
54.63571426459994
 30
0.0
 10
-418.9946238277259
 20
53.7788478482339
 30
0.0
 10
-426.599420473443
 20
52.23513913290753
 30
0.0
 10
-433.8174736717926
 20
50.26578112926727
 30
0.0
 10
-439.4054934176322
 20
48.39613424786722
 30
0.0
 10
-443.5436190889266
 20
46.85288279180311
 30
0.0
 10
-446.5232120598127
 20
45.6676870948185
 30
0.0
 10
-449.2168369346708
 20
44.53702325891653
 30
0.0
 10
-451.5723881501654
 20
43.50280213592675
 30
0.0
 10
-453.5505966412879
 20
42.60346302160779
 30
0.0
 10
-455.1702304659873
 20
41.84604685911761
 30
0.0
 10
-456.4001670315172
 20
41.25918596264405
 30
0.0
 10
-457.3676572978398
 20
40.78969146755457
 30
0.0
 10
-457.5051087557517
 20
40.72233425345546
 30
0.0
 10
-457.5848354333481
 20
40.68326470138341
 30
0.0
  0
LINE
  5
AE
330
1F
100
AcDbEntity
  8
0
  6
Continuous
 62
     7
370
    25
100
AcDbLine
 10
-666.0848407382
 20
40.6832647014
 30
0.0
 11
-666.0848407382
 21
265.6832587409
 31
0.0
  0
LINE
  5
AF
330
1F
100
AcDbEntity
  8
0
  6
Continuous
 62
     7
370
    25
100
AcDbLine
 10
-139.0848307246
 20
40.6832647014
 30
0.0
 11
-139.0848307246
 21
265.6832587409
 31
0.0
  0
LINE
  5
B0
330
1F
100
AcDbEntity
  8
0
  6
Continuous
 62
     7
370
    25
100
AcDbLine
 10
-347.5848360294
 20
-72.8167343449
 30
0.0
 11
-457.5848354333
 21
-72.8167343449
 31
0.0
  0
LINE
  5
B1
330
1F
100
AcDbEntity
  8
0
  6
Continuous
 62
     7
370
    25
100
AcDbLine
 10
728.1364149551
 20
40.6832647014
 30
0.0
 11
936.6364202599
 21
40.6832647014
 31
0.0
  0
LINE
  5
B2
330
1F
100
AcDbEntity
  8
0
  6
Continuous
 62
     7
370
    25
100
AcDbLine
 10
409.6364102463
 20
40.6832647014
 30
0.0
 11
618.173910598
 21
40.6832647014
 31
0.0
  0
LINE
  5
B3
330
1F
100
AcDbEntity
  8
0
  6
Continuous
 62
     7
370
    25
100
AcDbLine
 10
936.6364202599
 20
265.6832587409
 30
0.0
 11
409.6364102463
 21
265.6832587409
 31
0.0
  0
LINE
  5
B4
330
1F
100
AcDbEntity
  8
0
  6
Continuous
 62
     7
370
    25
100
AcDbLine
 10
618.1364155511
 20
40.7015782285
 30
0.0
 11
618.1364155511
 21
-72.8167343449
 31
0.0
  0
LINE
  5
B5
330
1F
100
AcDbEntity
  8
0
  6
Continuous
 62
     7
370
    25
100
AcDbLine
 10
728.1364149551
 20
-72.8167343449
 30
0.0
 11
728.1364149551
 21
40.6832647014
 31
0.0
  0
SPLINE
  5
B6
330
1F
100
AcDbEntity
  8
0
  6
Continuous
 62
     7
370
    25
100
AcDbSpline
210
0.0
220
0.0
230
1.0
 70
     8
 71
     3
 72
    43
 73
    39
 74
     0
 42
0.000000001
 43
0.00000001
 40
0.0
 40
0.0
 40
0.0
 40
0.0
 40
0.0243269096256909
 40
0.0488369282189832
 40
0.07391551424892
 40
0.0991850965857715
 40
0.1235094525226694
 40
0.1479930136931724
 40
0.1729547121858048
 40
0.1980721275439939
 40
0.2238449909731132
 40
0.2497762922014774
 40
0.2761961497359409
 40
0.3027831701085678
 40
0.3303355435446174
 40
0.3580896014517654
 40
0.3865169195763227
 40
0.4151976213049872
 40
0.4410454468179131
 40
0.4671114529895531
 40
0.4938984486392435
 40
0.5209460277918647
 40
0.5671285498114971
 40
0.5908057165154731
 40
0.614641210550924
 40
0.6620287215243668
 40
0.7105168613742963
 40
0.7369714497942528
 40
0.7635936265720428
 40
0.7907450952847234
 40
0.8180833338392348
 40
0.8455445965850638
 40
0.8732177229862126
 40
0.9015974291411555
 40
0.9302393668431821
 40
0.9554798613883773
 40
0.9809204987980275
 40
1.0
 40
1.0
 40
1.0
 40
1.0
 10
728.1364149550561
 20
40.68326470138341
 30
0.0
 10
728.1044068472231
 20
40.69893067589142
 30
0.0
 10
728.04014970611
 20
40.73038054290286
 30
0.0
 10
727.5167968853199
 20
40.98540021274138
 30
0.0
 10
726.6718829981036
 20
41.39313010510654
 30
0.0
 10
725.4884536470718
 20
41.95591379066653
 30
0.0
 10
724.0024767605956
 20
42.64854431167011
 30
0.0
 10
722.2281811413062
 20
43.45510972881301
 30
0.0
 10
720.148699140028
 20
44.37124528135769
 30
0.0
 10
717.7541733630611
 20
45.38618165336909
 30
0.0
 10
715.0578703734886
 20
46.47634210155595
 30
0.0
 10
712.0521464011712
 20
47.62363674784163
 30
0.0
 10
708.7613922482998
 20
48.79497619023083
 30
0.0
 10
705.1575280753437
 20
49.97293294583757
 30
0.0
 10
701.2563793447437
 20
51.12008721482297
 30
0.0
 10
697.0398091392829
 20
52.20468894495728
 30
0.0
 10
692.5558863987522
 20
53.17571010082678
 30
0.0
 10
687.9926230328119
 20
53.96071212674815
 30
0.0
 10
683.4265334935583
 20
54.53959550948824
 30
0.0
 10
678.8772062559985
 20
54.91260900366517
 30
0.0
 10
674.2039362185892
 20
55.07654811103638
 30
0.0
 10
668.3428785077023
 20
54.99931040671169
 30
0.0
 10
662.7128453547855
 20
54.55346198557851
 30
0.0
 10
657.4431747933838
 20
53.82305644488303
 30
0.0
 10
652.2487072969399
 20
52.90170587424416
 30
0.0
 10
646.0162729594149
 20
51.44435882197819
 30
0.0
 10
640.2122411994558
 20
49.70545685932976
 30
0.0
 10
635.821213522367
 20
48.20483528607696
 30
0.0
 10
632.604958920314
 20
47.01681313057231
 30
0.0
 10
629.6298609064798
 20
45.84356323721034
 30
0.0
 10
626.9256133396603
 20
44.71706550769755
 30
0.0
 10
624.5295547867329
 20
43.67275970425325
 30
0.0
 10
622.455468381457
 20
42.73480494372746
 30
0.0
 10
620.7383188855229
 20
41.93484696570664
 30
0.0
 10
619.4678935095632
 20
41.3293542217415
 30
0.0
 10
618.6380083648579
 20
40.92808090753168
 30
0.0
 10
618.1895294650462
 20
40.70924841088039
 30
0.0
 10
618.1785961621247
 20
40.70388445153586
 30
0.0
 10
618.1739105979566
 20
40.70158567907124
 30
0.0
  0
LINE
  5
B7
330
1F
100
AcDbEntity
  8
0
  6
Continuous
 62
     7
370
    25
100
AcDbLine
 10
936.6364202599
 20
265.6832587409
 30
0.0
 11
936.6364202599
 21
40.6832647014
 31
0.0
  0
LINE
  5
B8
330
1F
100
AcDbEntity
  8
0
  6
Continuous
 62
     7
370
    25
100
AcDbLine
 10
409.6364102463
 20
265.6832587409
 30
0.0
 11
409.6364102463
 21
40.6832647014
 31
0.0
  0
LINE
  5
B9
330
1F
100
AcDbEntity
  8
0
  6
Continuous
 62
     7
370
    25
100
AcDbLine
 10
728.1364149551
 20
-72.8167343449
 30
0.0
 11
618.1364155511
 21
-72.8167343449
 31
0.0
  0
LINE
  5
BA
330
1F
100
AcDbEntity
  8
0
  6
Continuous
 62
     7
370
    25
100
AcDbLine
 10
27.7388305455
 20
-193.9204356531
 30
0.0
 11
27.7388305455
 21
-720.9204456667
 31
0.0
  0
LINE
  5
BB
330
1F
100
AcDbEntity
  8
0
  6
Continuous
 62
     7
370
    25
100
AcDbLine
 10
252.738824585
 20
-720.9204456667
 30
0.0
 11
252.738824585
 21
-193.9204356531
 31
0.0
  0
LINE
  5
BC
330
1F
100
AcDbEntity
  8
0
  6
Continuous
 62
     7
370
    25
100
AcDbLine
 10
252.738824585
 20
-720.9204456667
 30
0.0
 11
27.7388305455
 21
-720.9204456667
 31
0.0
  0
LINE
  5
BD
330
1F
100
AcDbEntity
  8
0
  6
Continuous
 62
     7
370
    25
100
AcDbLine
 10
252.738824585
 20
-193.9204356531
 30
0.0
 11
27.7388305455
 21
-193.9204356531
 31
0.0
  0
LINE
  5
BE
330
1F
100
AcDbEntity
  8
0
  6
Continuous
 62
     7
370
    25
100
AcDbLine
 10
936.7626059369
 20
-368.3365870163
 30
0.0
 11
564.1173251709
 21
-153.2130454634
 31
0.0
  0
LINE
  5
BF
330
1F
100
AcDbEntity
  8
0
  6
Continuous
 62
     7
370
    25
100
AcDbLine
 10
451.6264698014
 20
-348.0740443958
 30
0.0
 11
639.1945388565
 21
-456.3547858409
 31
0.0
  0
LINE
  5
C0
330
1F
100
AcDbEntity
  8
0
  6
Continuous
 62
     7
370
    25
100
AcDbLine
 10
749.1945367171
 20
-519.8564329353
 30
0.0
 11
824.2717505673
 21
-563.1975859486
 31
0.0
  0
LINE
  5
C1
330
1F
100
AcDbEntity
  8
0
  6
Continuous
 62
     7
370
    25
100
AcDbLine
 10
639.1945390211
 20
-444.4025981019
 30
0.0
 11
639.1945390211
 21
-542.74353598
 31
0.0
  0
LINE
  5
C2
330
1F
100
AcDbEntity
  8
0
  6
Continuous
 62
     7
370
    25
100
AcDbLine
 10
749.1945367171
 20
-542.74353598
 30
0.0
 11
749.1945367171
 21
-444.4015334539
 31
0.0
  0
SPLINE
  5
C3
330
1F
100
AcDbEntity
  8
0
  6
Continuous
 62
     7
370
    25
100
AcDbSpline
210
0.0
220
0.0
230
1.0
 70
     8
 71
     3
 72
    18
 73
    14
 74
     0
 42
0.000000001
 43
0.00000001
 40
0.0
 40
0.0
 40
0.0
 40
0.0
 40
0.0973872318690656
 40
0.1966434289157296
 40
0.2959030118260648
 40
0.3970640187989554
 40
0.4944410275576289
 40
0.5934095783705627
 40
0.6923833515965839
 40
0.7929351927912551
 40
0.8961109707803642
 40
0.9999210183470439
 40
1.0
 40
1.0
 40
1.0
 40
1.0
 10
655.3036651145843
 20
-427.6149316562276
 30
0.0
 10
654.3189542117926
 20
-428.196730792641
 30
0.0
 10
652.3306347504077
 20
-429.3714944133831
 30
0.0
 10
649.6652178943514
 20
-431.1303116805454
 30
0.0
 10
647.233735846415
 20
-432.8915153136385
 30
0.0
 10
645.1254634452084
 20
-434.6133260845449
 30
0.0
 10
643.3281020706954
 20
-436.3006569519112
 30
0.0
 10
641.8554490986052
 20
-437.9412311918932
 30
0.0
 10
640.6902308523374
 20
-439.565529834861
 30
0.0
 10
639.8282939555801
 20
-441.180559551293
 30
0.0
 10
639.339915281097
 20
-442.7936997373424
 30
0.0
 10
639.1345309895423
 20
-443.8661759649077
 30
0.0
 10
639.1946303078696
 20
-444.4021875576348
 30
0.0
 10
639.1946759983871
 20
-444.4025950605436
 30
0.0
  0
SPLINE
  5
C4
330
1F
100
AcDbEntity
  8
0
  6
Continuous
 62
     7
370
    25
100
AcDbSpline
210
0.0
220
0.0
230
1.0
 70
     8
 71
     3
 72
    32
 73
    28
 74
     0
 42
0.000000001
 43
0.00000001
 40
0.0
 40
0.0
 40
0.0
 40
0.0
 40
0.0050659925001942
 40
0.0405992621219598
 40
0.0768395808028208
 40
0.1133289542247368
 40
0.1499642246242669
 40
0.1868857889088286
 40
0.2247759987990057
 40
0.2630336514609638
 40
0.2961789562972669
 40
0.3300349718619347
 40
0.3638908655441815
 40
0.3984914733026922
 40
0.4594519279709154
 40
0.5219792918878894
 40
0.5871379671129928
 40
0.6538224216094329
 40
0.6899560568615756
 40
0.7263319807973929
 40
0.7634900877982417
 40
0.8009310476625895
 40
0.8369770744426813
 40
0.8733110727414893
 40
0.9106040793706791
 40
0.9482505634528126
 40
1.0
 40
1.0
 40
1.0
 40
1.0
 10
749.1718748834824
 20
-444.4011517635221
 30
0.0
 10
749.1791471194804
 20
-444.2313823082118
 30
0.0
 10
749.2374273904215
 20
-442.8708365481897
 30
0.0
 10
748.988734095348
 20
-440.285500674059
 30
0.0
 10
748.392057006769
 20
-436.6847431013316
 30
0.0
 10
747.3619380843892
 20
-433.1240619749136
 30
0.0
 10
745.9419013323354
 20
-429.6650117602892
 30
0.0
 10
744.103026315189
 20
-426.3342164580295
 30
0.0
 10
741.8336634673416
 20
-423.1824289540477
 30
0.0
 10
739.2532787087919
 20
-420.4091841829018
 30
0.0
 10
736.4374986851944
 20
-418.0265862126355
 30
0.0
 10
733.4593871423925
 20
-416.0313222992408
 30
0.0
 10
730.1786073685882
 20
-414.3194764823996
 30
0.0
 10
725.7317530521764
 20
-412.5742867348164
 30
0.0
 10
719.8563673205209
 20
-411.1615660825532
 30
0.0
 10
712.3630796562468
 20
-410.5394515423587
 30
0.0
 10
704.3067922081306
 20
-410.9053490716616
 30
0.0
 10
697.1812642518016
 20
-411.985646486168
 30
0.0
 10
691.2612433325933
 20
-413.2843059488757
 30
0.0
 10
686.6082486185747
 20
-414.5073575628712
 30
0.0
 10
681.9395078271912
 20
-415.9247073607831
 30
0.0
 10
677.3544080390576
 20
-417.4942894964955
 30
0.0
 10
672.9051990603022
 20
-419.1803245642258
 30
0.0
 10
668.5931797237355
 20
-420.9668253097998
 30
0.0
 10
664.3995074256029
 20
-422.8613948240487
 30
0.0
 10
659.8445137579542
 20
-425.0841807096192
 30
0.0
 10
656.9685187338684
 20
-426.6870588721127
 30
0.0
 10
655.3036651145843
 20
-427.6149316562275
 30
0.0
  0
LWPOLYLINE
  5
C5
330
1F
100
AcDbEntity
  8
0
  6
Continuous
 62
     7
370
    25
100
AcDbPolyline
 90
      113
 70
   128
 43
0.0
 10
507.8718974861
 20
-342.5043838333
 10
512.3322740979
 20
-339.7849509399
 10
516.7786171262
 20
-336.7850450875
 10
521.1969357929
 20
-333.51410573
 10
525.5733288821
 20
-329.9824270897
 10
529.8940275452
 20
-326.2011151957
 10
534.1454367893
 20
-322.1820700166
 10
538.3141789414
 20
-317.9379421182
 10
542.3871371118
 20
-313.4820771539
 10
546.3514986587
 20
-308.8285029409
 10
550.1947907491
 20
-303.9918541776
 10
553.9049172374
 20
-298.9873572379
 10
557.470208715
 20
-293.8307465251
 10
560.8794409492
 20
-288.5382599105
 10
564.1218981039
 20
-283.1265353166
 10
567.187370105
 20
-277.6126061541
 10
570.0662105926
 20
-272.0138313649
 10
572.7493685308
 20
-266.3478102527
 10
575.2283934767
 20
-260.6323824841
 10
577.4954935315
 20
-254.8855216288
 10
579.5435300728
 20
-249.1253169082
 10
581.3660651696
 20
-243.3698880281
 10
582.9573563136
 20
-237.6373456337
 10
584.312403835
 20
-231.945722873
 10
585.4269403654
 20
-226.3129312885
 10
586.2974571796
 20
-220.75669542
 10
586.9212200008
 20
-215.29449349
 10
587.2962637323
 20
-209.943512536
 10
587.4214082623
 20
-204.7205898561
 10
587.2962637323
 20
-199.6421559749
 10
586.9212200008
 20
-194.7241912963
 10
586.2974571796
 20
-189.9821705902
 10
585.4269403654
 20
-185.4310120418
 10
584.312403835
 20
-181.0850369446
 10
582.9573563136
 20
-176.9579187507
 10
581.3660651696
 20
-173.0626420039
 10
579.5435300728
 20
-169.4114673561
 10
577.4954935315
 20
-166.015875294
 10
575.2283934767
 20
-162.8865524461
 10
572.7493685308
 20
-160.0333459559
 10
570.0662105926
 20
-157.4652330584
 10
567.187370105
 20
-155.1902967462
 10
564.1218981039
 20
-153.2156862197
 10
560.8794409492
 20
-151.5476229705
 10
557.470208715
 20
-150.1913521089
 10
553.9049172374
 20
-149.1511393161
 10
550.1947907491
 20
-148.4302632404
 10
546.3514986587
 20
-148.0309850726
 10
542.3871371118
 20
-147.9545652741
 10
538.3141789414
 20
-148.2012377171
 10
534.1454367893
 20
-148.7702370571
 10
529.8940275452
 20
-149.6597645094
 10
525.5733288821
 20
-150.867025107
 10
521.1969357929
 20
-152.388222374
 10
516.7786171262
 20
-154.2185651653
 10
512.3322740979
 20
-156.3522977008
 10
507.8718974861
 20
-158.7827060259
 10
503.4115208744
 20
-161.5021389193
 10
498.9651778461
 20
-164.5020447717
 10
494.5468591793
 20
-167.7729841292
 10
490.1704660901
 20
-171.3046627695
 10
485.849767427
 20
-175.0859746635
 10
481.5983581829
 20
-179.1050198426
 10
477.4296160309
 20
-183.349147741
 10
473.3566578604
 20
-187.8050127053
 10
469.3922963135
 20
-192.4585869183
 10
465.5490042232
 20
-197.2952356816
 10
461.8388777349
 20
-202.2997326213
 10
458.2735862573
 20
-207.4563433341
 10
454.864354023
 20
-212.7488299487
 10
451.6218968683
 20
-218.1605545426
 10
448.5564248672
 20
-223.6744837051
 10
445.6775843797
 20
-229.2732584943
 10
442.9944264414
 20
-234.9392796065
 10
440.5154014955
 20
-240.6547073751
 10
438.2483014407
 20
-246.4015682304
 10
436.2002648994
 20
-252.161772951
 10
434.3777298027
 20
-257.9172018311
 10
432.7864386586
 20
-263.6497442255
 10
431.4313911372
 20
-269.3413669862
 10
430.3168546069
 20
-274.9741585707
 10
429.4463377926
 20
-280.5303944392
 10
428.8225749714
 20
-285.9925963692
 10
428.4475312399
 20
-291.3435773232
 10
428.32238671
 20
-296.5665000031
 10
428.4475312399
 20
-301.6449338843
 10
428.8225749714
 20
-306.5628985629
 10
429.4463377926
 20
-311.304919269
 10
430.3168546069
 20
-315.8560778174
 10
431.4313911372
 20
-320.2020529146
 10
432.7864386586
 20
-324.3291711085
 10
434.3777298027
 20
-328.2244478553
 10
436.2002648994
 20
-331.8756225031
 10
438.2483014407
 20
-335.2712145652
 10
440.5154014955
 20
-338.4005374131
 10
442.9944264414
 20
-341.2537439033
 10
445.6775843797
 20
-343.8218568008
 10
448.5564248672
 20
-346.096793113
 10
451.6218968683
 20
-348.0714036395
 10
454.864354023
 20
-349.7394668887
 10
458.2735862573
 20
-351.0957377503
 10
461.8388777349
 20
-352.1359505431
 10
465.5490042232
 20
-352.8568266188
 10
469.3922963135
 20
-353.2561047866
 10
473.3566578604
 20
-353.3325245851
 10
477.4296160309
 20
-353.0858521421
 10
481.5983581829
 20
-352.5168528021
 10
485.849767427
 20
-351.6273253498
 10
490.1704660901
 20
-350.4200647522
 10
494.5468591793
 20
-348.8988674852
 10
498.9651778461
 20
-347.0685246939
 10
503.4115208744
 20
-344.9347921584
 10
507.8718974861
 20
-342.5043838333
  0
LWPOLYLINE
  5
C6
330
1F
100
AcDbEntity
  8
0
  6
Continuous
 62
     7
370
    25
100
AcDbPolyline
 90
       44
 70
   128
 43
0.0
 10
880.5171782521
 20
-557.6279253861
 10
884.9775548639
 20
-554.9084924927
 10
889.4238978922
 20
-551.9085866404
 10
893.8422165589
 20
-548.6376472829
 10
898.2186096481
 20
-545.1059686426
 10
902.5393083112
 20
-541.3246567486
 10
906.7907175553
 20
-537.3056115694
 10
910.9594597073
 20
-533.061483671
 10
915.0324178778
 20
-528.6056187067
 10
918.9967794247
 20
-523.9520444937
 10
922.840071515
 20
-519.1153957304
 10
926.5501980034
 20
-514.1108987908
 10
930.115489481
 20
-508.954288078
 10
933.5247217152
 20
-503.6618014633
 10
936.7671788699
 20
-498.2500768694
 10
939.832650871
 20
-492.736147707
 10
942.7114913586
 20
-487.1373729178
 10
945.3946492968
 20
-481.4713518056
 10
947.8736742427
 20
-475.755924037
 10
950.1407742975
 20
-470.0090631817
 10
952.1888108388
 20
-464.2488584611
 10
954.0113459356
 20
-458.4934295809
 10
955.6026370796
 20
-452.7608871866
 10
956.957684601
 20
-447.0692644259
 10
958.0722211314
 20
-441.4364728414
 10
958.9427379456
 20
-435.8802369729
 10
959.5665007668
 20
-430.4180350429
 10
959.9415444983
 20
-425.0670540889
 10
960.0666890282
 20
-419.844131409
 10
959.9415444983
 20
-414.7656975278
 10
959.5665007668
 20
-409.8477328491
 10
958.9427379456
 20
-405.1057121431
 10
958.0722211314
 20
-400.5545535946
 10
956.957684601
 20
-396.2085784974
 10
955.6026370796
 20
-392.0814603035
 10
954.0113459356
 20
-388.1861835568
 10
952.1888108388
 20
-384.535008909
 10
950.1407742975
 20
-381.1394168468
 10
947.8736742427
 20
-378.010093999
 10
945.3946492968
 20
-375.1568875087
 10
942.7114913586
 20
-372.5887746113
 10
939.832650871
 20
-370.313838299
 10
936.7671788699
 20
-368.3392277725
 10
936.7626059369
 20
-368.3365870163
  0
LWPOLYLINE
  5
C7
330
1F
100
AcDbEntity
  8
0
  6
Continuous
 62
     7
370
    25
100
AcDbPolyline
 90
       15
 70
   128
 43
0.0
 10
824.2717505673
 20
-563.1975859486
 10
827.509634789
 20
-564.8630084415
 10
830.9188670232
 20
-566.2192793032
 10
834.4841585008
 20
-567.259492096
 10
838.1942849892
 20
-567.9803681717
 10
842.0375770795
 20
-568.3796463395
 10
846.0019386264
 20
-568.4560661379
 10
850.0748967969
 20
-568.209393695
 10
854.2436389489
 20
-567.6403943549
 10
858.495048193
 20
-566.7508669027
 10
862.8157468561
 20
-565.5436063051
 10
867.1921399453
 20
-564.022409038
 10
871.610458612
 20
-562.1920662468
 10
876.0568016403
 20
-560.0583337112
 10
880.5171782521
 20
-557.6279253861
  0
LWPOLYLINE
  5
C8
330
1F
100
AcDbEntity
  8
0
  6
Continuous
 62
     7
370
    25
100
AcDbPolyline
 90
      106
 70
   128
 43
0.0
 10
507.8718974861
 20
-331.5627403317
 10
512.0626307442
 20
-328.9986467968
 10
516.2383623584
 20
-326.1540612005
 10
520.384143039
 20
-323.039171012
 10
524.4851341321
 20
-319.6651218942
 10
528.5266547048
 20
-316.0439905213
 10
532.4942365343
 20
-312.1887406677
 10
536.3736748157
 20
-308.1131817669
 10
540.1510861134
 20
-303.8318928712
 10
543.8129465577
 20
-299.3602066855
 10
547.3461458443
 20
-294.7141236397
 10
550.7380372846
 20
-289.910282996
 10
553.9764825862
 20
-284.965870077
 10
557.0498834631
 20
-279.8985980168
 10
559.9472369539
 20
-274.7266028229
 10
562.6581749337
 20
-269.4683931893
 10
565.172998359
 20
-264.1427942252
 10
567.4826930726
 20
-258.7688714104
 10
569.5789982922
 20
-253.3658636809
 10
571.4544066103
 20
-247.9531134663
 10
573.1022061415
 20
-242.5499906477
 10
574.5165015952
 20
-237.1758408477
 10
575.6922248129
 20
-231.8499017811
 10
576.6251663781
 20
-226.5912408995
 10
577.3119914215
 20
-221.4186793464
 10
577.7502396206
 20
-216.3507356833
 10
577.9383357372
 20
-211.4055542168
 10
577.8756212266
 20
-206.600829526
 10
577.5623068231
 20
-201.9537691946
 10
576.999519955
 20
-197.4810044619
 10
576.1892731341
 20
-193.1985489639
 10
575.1344639564
 20
-189.121733144
 10
573.8388803699
 20
-185.2651445569
 10
572.3071479912
 20
-181.6425966844
 10
570.5447511789
 20
-178.2670559336
 10
568.558006692
 20
-175.1506020897
 10
566.3540215429
 20
-172.3043933311
 10
563.9406824604
 20
-169.7386206006
 10
561.3266295487
 20
-167.4624680588
 10
558.5212299446
 20
-165.4840765794
 10
555.5345145983
 20
-163.8105346178
 10
552.3771782726
 20
-162.4478356251
 10
549.0605268594
 20
-161.4008537085
 10
545.5964299651
 20
-160.6733345008
 10
541.9972892998
 20
-160.2678890746
 10
538.2759886283
 20
-160.1859619971
 10
534.4458489888
 20
-160.427851099
 10
530.5205812781
 20
-160.9926861764
 10
526.5142388359
 20
-161.8784502792
 10
522.4411594933
 20
-163.0819705809
 10
518.3159273769
 20
-164.5989404276
 10
514.1533077131
 20
-166.4239265567
 10
509.9682023764
 20
-168.5503947583
 10
505.7755925958
 20
-170.9707368662
 10
501.5904872591
 20
-173.6762884339
 10
497.4278675954
 20
-176.6573606688
 10
493.302635479
 20
-179.9032824427
 10
489.2295561363
 20
-183.4024394507
 10
485.2232136942
 20
-187.1422998724
 10
481.2979459834
 20
-191.1094824272
 10
477.467806344
 20
-195.2897784241
 10
473.7465056724
 20
-199.6682278028
 10
470.1473650071
 20
-204.2291525894
 10
466.6832681128
 20
-208.9562329382
 10
463.3666166997
 20
-213.832539067
 10
460.2092803739
 20
-218.8406209873
 10
457.2225650276
 20
-223.9625510867
 10
454.4171654236
 20
-229.1799880038
 10
451.8031125118
 20
-234.474261795
 10
449.3897734294
 20
-239.8264165203
 10
447.1857882802
 20
-245.2172923674
 10
445.1990437933
 20
-250.62759257
 10
443.436646981
 20
-256.0379533679
 10
441.9049146023
 20
-261.4290018012
 10
440.6093310158
 20
-266.7814393573
 10
439.5545218381
 20
-272.0761119309
 10
438.7442750173
 20
-277.2940584957
 10
438.1814881491
 20
-282.4166031155
 10
437.8681737456
 20
-287.4254085572
 10
437.8054592351
 20
-292.3025418807
 10
437.9935553516
 20
-297.0305521936
 10
438.4318035508
 20
-301.5925052562
 10
439.1186285941
 20
-305.9720754936
 10
440.0515701593
 20
-310.1535849719
 10
441.227293377
 20
-314.1220629057
 10
442.6415888307
 20
-317.8633019323
 10
444.2893883619
 20
-321.3639159083
 10
446.1647966801
 20
-324.6113657684
 10
448.2611018997
 20
-327.5940310098
 10
450.5707966133
 20
-330.3012370709
 10
453.0856200386
 20
-332.723282712
 10
455.7965580184
 20
-334.8515099777
 10
458.6939115091
 20
-336.678292036
 10
461.7673123861
 20
-338.1970909751
 10
465.0057576876
 20
-339.4024745364
 10
468.3976491279
 20
-340.2901206817
 10
471.9308484146
 20
-340.8568586625
 10
475.5927088588
 20
-341.1006507725
 10
479.3701201566
 20
-341.0206334167
 10
483.2495584379
 20
-340.6170882183
 10
487.2171402674
 20
-339.8914655982
 10
491.2586608402
 20
-338.8463566416
 10
495.3596519332
 20
-337.4855022286
 10
499.5054326139
 20
-335.8137759291
 10
503.6811642281
 20
-333.8371644258
 10
507.8718974861
 20
-331.5627403317
  0
LWPOLYLINE
  5
C9
330
1F
100
AcDbEntity
  8
0
  6
Continuous
 62
     7
370
    25
100
AcDbPolyline
 90
       74
 70
   128
 43
0.0
 10
728.4185058931
 20
-562.5006121791
 10
731.2338715804
 20
-560.7290620873
 10
733.7750114321
 20
-558.8243537732
 10
736.0231105022
 20
-556.8005879191
 10
737.9615230906
 20
-554.6727479615
 10
739.5759054392
 20
-552.4565900316
 10
740.8542957457
 20
-550.1685176896
 10
741.7872346767
 20
-547.8254758572
 10
742.3678167346
 20
-545.4448086344
 10
742.5917376724
 20
-543.0441406861
 10
742.4573419092
 20
-540.6412495058
 10
741.9656251643
 20
-538.2539209503
 10
741.120230506
 20
-535.8998329085
 10
739.9274154242
 20
-533.596411597
 10
738.3960070493
 20
-531.3607144676
 10
736.537345518
 20
-529.2092910658
 10
734.3651970445
 20
-527.1580689793
 10
731.8956370296
 20
-525.2222376963
 10
729.1469484798
 20
-523.4161291377
 10
726.1394873351
 20
-521.7531125395
 10
722.8955166805
 20
-520.2455017868
 10
719.4390546219
 20
-518.9044584706
 10
715.7956887417
 20
-517.7399121468
 10
711.9923986203
 20
-516.7604822121
 10
708.0573357186
 20
-515.9734238239
 10
704.0196426066
 20
-515.384560041
 10
699.909204034
 20
-514.9982536901
 10
695.7564552939
 20
-514.8173636472
 10
691.5921438293
 20
-514.8432288696
 10
687.447101377
 20
-515.0756585123
 10
683.3520121599
 20
-515.5129304068
 10
679.3371982011
 20
-516.1518100695
 10
675.4323835657
 20
-516.9875651488
 10
671.6664750649
 20
-518.0140068628
 10
668.0673581072
 20
-519.2235379011
 10
664.6616770742
 20
-520.6072031776
 10
661.4746479643
 20
-522.1547584507
 10
658.529864781
 20
-523.8547455972
 10
655.8491299573
 20
-525.6945783404
 10
653.4522916953
 20
-527.660636152
 10
651.3570954647
 20
-529.738362146
 10
649.5790536105
 20
-531.9123748484
 10
648.1313264863
 20
-534.1665763554
 10
647.0246345381
 20
-536.4842791201
 10
646.267175328
 20
-538.8483238051
 10
645.8645517525
 20
-541.2412058788
 10
645.8197470183
 20
-543.6452117166
 10
646.1330917149
 20
-546.0425425357
 10
646.8022664483
 20
-548.4154482149
 10
647.8223189639
 20
-550.7463588337
 10
649.185691805
 20
-553.0180222931
 10
650.8822980453
 20
-555.2136149456
 10
652.8995700214
 20
-557.316885299
 10
655.222576883
 20
-559.3122583727
 10
657.8341182706
 20
-561.1849627699
 10
660.7148596469
 20
-562.9211331333
 10
663.8434704258
 20
-564.5079172575
 10
667.1967919021
 20
-565.9335639083
 10
670.7499977709
 20
-567.1875185309
 10
674.4767762156
 20
-568.2605009939
 10
678.3495368557
 20
-569.1445642309
 10
682.3396119314
 20
-569.8331617204
 10
686.4174538679
 20
-570.3211976685
 10
690.552876302
 20
-570.6050597032
 10
694.7152569141
 20
-570.6826447258
 10
698.8737863579
 20
-570.5533779199
 10
702.9976697752
 20
-570.2182150321
 10
707.0563770424
 20
-569.6796408511
 10
711.0198640422
 20
-568.9416418359
 10
714.8587781287
 20
-568.0096787434
 10
718.5447044234
 20
-566.8906569752
 10
722.0503495493
 20
-565.5928570064
 10
725.3497586209
 20
-564.1258881954
 10
728.4185058931
 20
-562.5006121791
  0
LWPOLYLINE
  5
CA
330
1F
100
AcDbEntity
  8
0
  6
Continuous
 62
     7
370
    25
100
AcDbPolyline
 90
       79
 70
   128
 43
0.0
 10
733.0854106236
 20
-565.1947589335
 10
736.0887143768
 20
-563.3153836043
 10
738.8203197882
 20
-561.3025922976
 10
741.262509047
 20
-559.1694387088
 10
743.3994438285
 20
-556.9297558808
 10
745.2172663808
 20
-554.5980704763
 10
746.7041861228
 20
-552.1895041234
 10
747.850560646
 20
-549.7196749516
 10
748.6489562998
 20
-547.2046048309
 10
749.0941929733
 20
-544.660602279
 10
749.1833862415
 20
-542.1041681794
 10
748.915953951
 20
-539.5518794498
 10
748.2936333422
 20
-537.020289437
 10
747.3204586588
 20
-534.5258176684
 10
746.0027413914
 20
-532.084641123
 10
744.3490294476
 20
-529.7125915858
 10
742.3700445907
 20
-527.4250526218
 10
740.0786244872
 20
-525.2368592113
 10
737.4896285354
 20
-523.1622038475
 10
734.6198464922
 20
-521.2145412098
 10
731.4878914596
 20
-519.4065020546
 10
728.114075255
 20
-517.7498121447
 10
724.5202773613
 20
-516.2552165951
 10
720.7298044918
 20
-514.9324079262
 10
716.7672414299
 20
-513.7899642858
 10
712.6582858996
 20
-512.8352967014
 10
708.4295859043
 20
-512.0745947149
 10
704.1085658715
 20
-511.5127929285
 10
699.7232481871
 20
-511.153534888
 10
695.3020753885
 20
-510.9991495129
 10
690.8737218205
 20
-511.0506396906
 10
686.4669026579
 20
-511.3076693512
 10
682.1102013666
 20
-511.7685733516
 10
677.8318681888
 20
-512.4303612772
 10
673.6596568243
 20
-513.2887417732
 10
669.6206215986
 20
-514.3381483953
 10
665.7409567779
 20
-515.5717745862
 10
662.0458260066
 20
-516.9816204359
 10
658.5591914143
 20
-518.5585426742
 10
655.3036651146
 20
-520.2923130265
 10
652.3003613614
 20
-522.1716883558
 10
649.5687559501
 20
-524.1844796624
 10
647.1265666913
 20
-526.3176332513
 10
644.9896319097
 20
-528.5573160792
 10
643.1718093575
 20
-530.8890014837
 10
641.6848896154
 20
-533.2975678367
 10
640.5385150923
 20
-535.7673970084
 10
639.7401194384
 20
-538.2824671291
 10
639.2948827649
 20
-540.826469681
 10
639.2056894967
 20
-543.3829037806
 10
639.4731217873
 20
-545.9351925103
 10
640.095442396
 20
-548.4667825231
 10
641.0686170794
 20
-550.9612542917
 10
642.3863343468
 20
-553.4024308371
 10
644.0400462906
 20
-555.7744803742
 10
646.0190311475
 20
-558.0620193382
 10
648.310451251
 20
-560.2502127488
 10
650.8994472028
 20
-562.3248681125
 10
653.769229246
 20
-564.2725307502
 10
656.9011842787
 20
-566.0805699054
 10
660.2750004832
 20
-567.7372598153
 10
663.8687983769
 20
-569.2318553649
 10
667.6592712465
 20
-570.5546640339
 10
671.6218343083
 20
-571.6971076742
 10
675.7307898386
 20
-572.6517752587
 10
679.9594898339
 20
-573.4124772451
 10
684.2805098667
 20
-573.9742790316
 10
688.6658275511
 20
-574.333537072
 10
693.0870003498
 20
-574.4879224471
 10
697.5153539177
 20
-574.4364322694
 10
701.9221730803
 20
-574.1794026088
 10
706.2788743716
 20
-573.7184986085
 10
710.5572075494
 20
-573.0567106828
 10
714.7294189139
 20
-572.1983301869
 10
718.7684541397
 20
-571.1489235647
 10
722.6481189603
 20
-569.9152973738
 10
726.3432497316
 20
-568.5054515241
 10
729.8298843239
 20
-566.9285292859
 10
733.0854106236
 20
-565.1947589335
  0
ENDSEC
  0
SECTION
  2
OBJECTS
  0
DICTIONARY
  5
C
330
0
100
AcDbDictionary
281
     1
  3
ACAD_GROUP
350
D
  3
ACAD_LAYOUT
350
1A
  3
ACAD_MLINESTYLE
350
17
  3
ACAD_PLOTSETTINGS
350
19
  3
ACAD_PLOTSTYLENAME
350
E
  3
ACAD_SCALELIST
350
47
  0
DICTIONARY
  5
D
102
{ACAD_REACTORS
330
C
102
}
330
C
100
AcDbDictionary
281
     1
  0
DICTIONARY
  5
1A
102
{ACAD_REACTORS
330
C
102
}
330
C
100
AcDbDictionary
281
     1
  3
Layout1
350
1E
  3
Layout2
350
26
  3
Model
350
22
  0
DICTIONARY
  5
17
102
{ACAD_REACTORS
330
C
102
}
330
C
100
AcDbDictionary
281
     1
  3
Standard
350
18
  0
DICTIONARY
  5
19
102
{ACAD_REACTORS
330
C
102
}
330
C
100
AcDbDictionary
281
     1
  0
ACDBDICTIONARYWDFLT
  5
E
102
{ACAD_REACTORS
330
C
102
}
330
C
100
AcDbDictionary
281
     1
  3
Normal
350
F
100
AcDbDictionaryWithDefault
340
F
  0
DICTIONARY
  5
47
102
{ACAD_REACTORS
330
C
102
}
330
C
100
AcDbDictionary
281
     1
  3
A0
350
48
  3
A1
350
49
  3
A2
350
4A
  3
A3
350
4B
  3
A4
350
4C
  3
A5
350
4D
  3
A6
350
4E
  3
A7
350
4F
  3
A8
350
50
  3
A9
350
51
  3
B0
350
52
  3
B1
350
53
  3
B2
350
54
  3
B3
350
55
  3
B4
350
56
  3
B5
350
57
  3
B6
350
58
  3
B7
350
59
  3
B8
350
5A
  3
B9
350
5B
  3
C0
350
5C
  3
C1
350
5D
  3
C2
350
5E
  3
C3
350
5F
  3
C4
350
60
  3
C5
350
61
  3
C6
350
62
  3
C7
350
63
  3
C8
350
64
  3
C9
350
65
  3
D0
350
66
  3
D1
350
67
  3
D2
350
68
  0
LAYOUT
  5
1E
102
{ACAD_REACTORS
330
1A
102
}
330
1A
100
AcDbPlotSettings
  1

  2
none_device
  4

  6

 40
0.0
 41
0.0
 42
0.0
 43
0.0
 44
0.0
 45
0.0
 46
0.0
 47
0.0
 48
0.0
 49
0.0
140
0.0
141
0.0
142
1.0
143
1.0
 70
   688
 72
     1
 73
     0
 74
     5
  7

 75
    16
147
1.0
148
0.0
149
0.0
100
AcDbLayout
  1
Layout1
 70
     1
 71
     1
 10
0.0
 20
0.0
 11
420.0
 21
297.0
 12
0.0
 22
0.0
 32
0.0
 14
1.0000000000E+20
 24
1.0000000000E+20
 34
1.0000000000E+20
 15
-1.0000000000E+20
 25
-1.0000000000E+20
 35
-1.0000000000E+20
146
0.0
 13
0.0
 23
0.0
 33
0.0
 16
1.0
 26
0.0
 36
0.0
 17
0.0
 27
1.0
 37
0.0
 76
     0
330
1B
  0
LAYOUT
  5
26
102
{ACAD_REACTORS
330
1A
102
}
330
1A
100
AcDbPlotSettings
  1

  2
none_device
  4

  6

 40
0.0
 41
0.0
 42
0.0
 43
0.0
 44
0.0
 45
0.0
 46
0.0
 47
0.0
 48
0.0
 49
0.0
140
0.0
141
0.0
142
1.0
143
1.0
 70
   688
 72
     1
 73
     0
 74
     5
  7

 75
    16
147
1.0
148
0.0
149
0.0
100
AcDbLayout
  1
Layout2
 70
     1
 71
     2
 10
0.0
 20
0.0
 11
0.0
 21
0.0
 12
0.0
 22
0.0
 32
0.0
 14
0.0
 24
0.0
 34
0.0
 15
0.0
 25
0.0
 35
0.0
146
0.0
 13
0.0
 23
0.0
 33
0.0
 16
1.0
 26
0.0
 36
0.0
 17
0.0
 27
1.0
 37
0.0
 76
     0
330
23
  0
LAYOUT
  5
22
102
{ACAD_REACTORS
330
1A
102
}
330
1A
100
AcDbPlotSettings
  1

  2
none_device
  4
Letter_(8.50_x_11.00_Inches)
  6

 40
6.35
 41
6.35
 42
6.35000508
 43
6.35000508
 44
215.9
 45
279.4
 46
0.0
 47
0.0
 48
0.0
 49
0.0
140
0.0
141
0.0
142
1.0
143
1.0
 70
  1712
 72
     1
 73
     0
 74
     0
  7

 75
     0
147
1.0
148
0.0
149
0.0
100
AcDbLayout
  1
Model
 70
     1
 71
     0
 10
0.0
 20
0.0
 11
279.4
 21
215.9
 12
0.0
 22
0.0
 32
0.0
 14
0.0
 24
0.0
 34
0.0
 15
279.4
 25
215.9
 35
0.0
146
0.0
 13
0.0
 23
0.0
 33
0.0
 16
1.0
 26
0.0
 36
0.0
 17
0.0
 27
1.0
 37
0.0
 76
     0
330
1F
331
29
  0
MLINESTYLE
  5
18
102
{ACAD_REACTORS
330
17
102
}
330
17
100
AcDbMlineStyle
  2
Standard
 70
     0
  3

 62
   256
 51
90.0
 52
90.0
 71
     2
 49
0.5
 62
   256
  6
BYLAYER
 49
-0.5
 62
   256
  6
BYLAYER
  0
ACDBPLACEHOLDER
  5
F
102
{ACAD_REACTORS
330
E
102
}
330
E
  0
SCALE
  5
48
102
{ACAD_REACTORS
330
47
102
}
330
47
100
AcDbScale
 70
     0
300
1:1
140
1.0
141
1.0
290
     1
  0
SCALE
  5
49
102
{ACAD_REACTORS
330
47
102
}
330
47
100
AcDbScale
 70
     0
300
1:2
140
1.0
141
2.0
290
     0
  0
SCALE
  5
4A
102
{ACAD_REACTORS
330
47
102
}
330
47
100
AcDbScale
 70
     0
300
1:4
140
1.0
141
4.0
290
     0
  0
SCALE
  5
4B
102
{ACAD_REACTORS
330
47
102
}
330
47
100
AcDbScale
 70
     0
300
1:5
140
1.0
141
5.0
290
     0
  0
SCALE
  5
4C
102
{ACAD_REACTORS
330
47
102
}
330
47
100
AcDbScale
 70
     0
300
1:8
140
1.0
141
8.0
290
     0
  0
SCALE
  5
4D
102
{ACAD_REACTORS
330
47
102
}
330
47
100
AcDbScale
 70
     0
300
1:10
140
1.0
141
10.0
290
     0
  0
SCALE
  5
4E
102
{ACAD_REACTORS
330
47
102
}
330
47
100
AcDbScale
 70
     0
300
1:16
140
1.0
141
16.0
290
     0
  0
SCALE
  5
4F
102
{ACAD_REACTORS
330
47
102
}
330
47
100
AcDbScale
 70
     0
300
1:20
140
1.0
141
20.0
290
     0
  0
SCALE
  5
50
102
{ACAD_REACTORS
330
47
102
}
330
47
100
AcDbScale
 70
     0
300
1:30
140
1.0
141
30.0
290
     0
  0
SCALE
  5
51
102
{ACAD_REACTORS
330
47
102
}
330
47
100
AcDbScale
 70
     0
300
1:40
140
1.0
141
40.0
290
     0
  0
SCALE
  5
52
102
{ACAD_REACTORS
330
47
102
}
330
47
100
AcDbScale
 70
     0
300
1:50
140
1.0
141
50.0
290
     0
  0
SCALE
  5
53
102
{ACAD_REACTORS
330
47
102
}
330
47
100
AcDbScale
 70
     0
300
1:100
140
1.0
141
100.0
290
     0
  0
SCALE
  5
54
102
{ACAD_REACTORS
330
47
102
}
330
47
100
AcDbScale
 70
     0
300
2:1
140
2.0
141
1.0
290
     0
  0
SCALE
  5
55
102
{ACAD_REACTORS
330
47
102
}
330
47
100
AcDbScale
 70
     0
300
4:1
140
4.0
141
1.0
290
     0
  0
SCALE
  5
56
102
{ACAD_REACTORS
330
47
102
}
330
47
100
AcDbScale
 70
     0
300
8:1
140
8.0
141
1.0
290
     0
  0
SCALE
  5
57
102
{ACAD_REACTORS
330
47
102
}
330
47
100
AcDbScale
 70
     0
300
10:1
140
10.0
141
1.0
290
     0
  0
SCALE
  5
58
102
{ACAD_REACTORS
330
47
102
}
330
47
100
AcDbScale
 70
     0
300
100:1
140
100.0
141
1.0
290
     0
  0
SCALE
  5
59
102
{ACAD_REACTORS
330
47
102
}
330
47
100
AcDbScale
 70
     0
300
1/128" = 1'-0"
140
0.0078125
141
12.0
290
     0
  0
SCALE
  5
5A
102
{ACAD_REACTORS
330
47
102
}
330
47
100
AcDbScale
 70
     0
300
1/64" = 1'-0"
140
0.015625
141
12.0
290
     0
  0
SCALE
  5
5B
102
{ACAD_REACTORS
330
47
102
}
330
47
100
AcDbScale
 70
     0
300
1/32" = 1'-0"
140
0.03125
141
12.0
290
     0
  0
SCALE
  5
5C
102
{ACAD_REACTORS
330
47
102
}
330
47
100
AcDbScale
 70
     0
300
1/16" = 1'-0"
140
0.0625
141
12.0
290
     0
  0
SCALE
  5
5D
102
{ACAD_REACTORS
330
47
102
}
330
47
100
AcDbScale
 70
     0
300
3/32" = 1'-0"
140
0.09375
141
12.0
290
     0
  0
SCALE
  5
5E
102
{ACAD_REACTORS
330
47
102
}
330
47
100
AcDbScale
 70
     0
300
1/8" = 1'-0"
140
0.125
141
12.0
290
     0
  0
SCALE
  5
5F
102
{ACAD_REACTORS
330
47
102
}
330
47
100
AcDbScale
 70
     0
300
3/16" = 1'-0"
140
0.1875
141
12.0
290
     0
  0
SCALE
  5
60
102
{ACAD_REACTORS
330
47
102
}
330
47
100
AcDbScale
 70
     0
300
1/4" = 1'-0"
140
0.25
141
12.0
290
     0
  0
SCALE
  5
61
102
{ACAD_REACTORS
330
47
102
}
330
47
100
AcDbScale
 70
     0
300
3/8" = 1'-0"
140
0.375
141
12.0
290
     0
  0
SCALE
  5
62
102
{ACAD_REACTORS
330
47
102
}
330
47
100
AcDbScale
 70
     0
300
1/2" = 1'-0"
140
0.5
141
12.0
290
     0
  0
SCALE
  5
63
102
{ACAD_REACTORS
330
47
102
}
330
47
100
AcDbScale
 70
     0
300
3/4" = 1'-0"
140
0.75
141
12.0
290
     0
  0
SCALE
  5
64
102
{ACAD_REACTORS
330
47
102
}
330
47
100
AcDbScale
 70
     0
300
1" = 1'-0"
140
1.0
141
12.0
290
     0
  0
SCALE
  5
65
102
{ACAD_REACTORS
330
47
102
}
330
47
100
AcDbScale
 70
     0
300
1-1/2" = 1'-0"
140
1.5
141
12.0
290
     0
  0
SCALE
  5
66
102
{ACAD_REACTORS
330
47
102
}
330
47
100
AcDbScale
 70
     0
300
3" = 1'-0"
140
3.0
141
12.0
290
     0
  0
SCALE
  5
67
102
{ACAD_REACTORS
330
47
102
}
330
47
100
AcDbScale
 70
     0
300
6" = 1'-0"
140
6.0
141
12.0
290
     0
  0
SCALE
  5
68
102
{ACAD_REACTORS
330
47
102
}
330
47
100
AcDbScale
 70
     0
300
1'-0" = 1'-0"
140
12.0
141
12.0
290
     0
  0
ENDSEC
  0
EOF
